Allegra K Women's Pointed Toe Stacked Heel Ankle Chelsea Boots | Ankle & Bootie - 1WHQ6IJ3L
Allegra K Women's Pointed Toe Stacked Heel Ankle Chelsea Boots | Ankle & Bootie - 1WHQ6IJ3L Allegra K Women's Pointed Toe Stacked Heel Ankle Chelsea Boots | Ankle & Bootie - 1WHQ6IJ3L Allegra K Women's Pointed Toe Stacked Heel Ankle Chelsea Boots | Ankle & Bootie - 1WHQ6IJ3L Allegra K Women's Pointed Toe Stacked Heel Ankle Chelsea Boots | Ankle & Bootie - 1WHQ6IJ3L Allegra K Women's Pointed Toe Stacked Heel Ankle Chelsea Boots | Ankle & Bootie - 1WHQ6IJ3L Allegra K Women's Pointed Toe Stacked Heel Ankle Chelsea Boots | Ankle & Bootie - 1WHQ6IJ3L

Allegra K Women's Pointed Toe Stacked Heel Ankle Chelsea Boots | Ankle & Bootie - 1WHQ6IJ3L

$219.89$117.04
Product Code: 1WHQ6IJ3L
Availability: In Stock
Qty:

Available Options

* Size:
  • Heel measures approximately 2.12 inches"

  • Pointed Toe, Elasticated Panel Sides, Stacked Heel

  • Pin Stud Detail, Padded Insole, Chelsea Boots

  • Heel Height: 2 1/8 inches

  • Platform Height: 3/8 inches

  • A pair of chelsea boots with a chunky stacked heel, a pointed toe, an elasticated panel sides, and a pull tab.

    Chelsea Boots
    Stacked Heel
    Pointed Toe
    Elasticated Sides
    Vamp: PU; Outsole: Rubber; Heel: PU

    Please check the size measurement chart before ordering.

    Size Chart (in inches)
    US Size--------Heel to Toe-----------Heel Height--------Platform Height
    5.5------------------8 3/4-------------------2 1/8-----------------3/8
    6---------------------9------------------------2 1/8-----------------3/8
    7---------------------9 1/4------------------2 1/8-----------------3/8
    8---------------------9 1/2------------------2 1/8-----------------3/8
    8.5------------------9 3/4------------------2 1/8-----------------3/8
    9.5-----------------10-----------------------2 1/8-----------------3/8
    10------------------10 1/4------------------2 1/8-----------------3/8
    11------------------10 1/2------------------2 1/8-----------------3/8

    Allegra K Women's Pointed Toe Stacked Heel Ankle Chelsea Boots | Ankle & Bootie - 1WHQ6IJ3L

    Related Products

    Powered By aeternusglobal.com © 2020